04.23.13

(/) Slide Up  (\) Slide Down  (h) Hammer On  (p) Pull Off  (b) Bend (r) Release (v) Vibrato

E|-------------------------------
B|-------------------------------
G|--7-----5-----5h7--------------
D|-----0-----0-------8--------7--
A|-------------------------5-----
E|----------------------0--------



E|------------------------------------
B|--10-----8--------------------------
G|---------------9h10-----9--------7--
D|------0-----0--------0--------------
A|------------------------------------
E|---------------------------8h10-----
http://www.guitartabcreator.com
Guitar Tab Creator is intended to store guitar tab created through the tool. It currently does not support in-line text editing. Any text you place in here will be lost. If you need to comment on your tab, please use the "Tab Notes" section located below.