no gods no masters

(/) Slide Up  (\) Slide Down  (h) Hammer On  (p) Pull Off  (b) Bend (r) Release (v) Vibrato


E|---------------------------------------------------------------------------------
B|---------------------------------------------------------------------------------
G|---------------------------------------------------------------------------------
D|---------------------------------------------------------------------------------
A|--6--4--6-----6--4--6-----6--4--6--4--6--7--7--7--6h7h6h4------------------------
E|-----------4-----------4-----------------------------------6--7--6h7h6--4--2-----



E|-----------------------------------------------------------
B|-----------------------------------------------------------
G|-----------------------------------------------------------
D|---------------------------------------------------7--9--8b
A|--6--4--6-----6--4--6-----6--4--8b--6--4--7--7--7----------
E|-----------4-----------4-----------------------------------



E|----------------------------------------------------------------
B|----------------------------------------------------------------
G|----------------------------------------------------------------
D|--11--11--11--11--11\7--7--7--7--7/9--9--9--9--9-6--6--6--6--6--
A|--11--11--11--11--11-7--7--7--7--7-9--9--9--9--9-6--6--6--6--6--
E|--9---9---9---9---9--5--5--5--5--5-7--7--7--7--7\4--4--4--4--4--



E|----------------------------------------------------------------
B|----------------------------------------------------------------
G|----------------------------------------------------------------
D|--11--11--11--11--11-7--7--7--7--7/9--9--9--9--9-8--8--8--8-----
A|--11--11--11--11--11-7--7--7--7--7-9--9--9--9--9-8--8--8--8-----
E|--9---9---9---9---9-\5--5--5--5--5-7--7--7--7--7\6--6--6--6-----



E|--------------6--7--4--6--2v----6h5h6v----------------6--7--4--6--2v----
B|--4--4--6--7------------------------------4--4--6--7--------------------
G|------------------------------------------------------------------------
D|------------------------------------------------------------------------
A|------------------------------------------------------------------------
E|------------------------------------------------------------------------



E|--------------------------
B|--7p6h7--4h5h4--6--2------
G|----------------------3v--
D|--------------------------
A|--------------------------
E|--------------------------



E|----------------------------------------------------------------------------------
B|----------------------------------------------------------------------------------
G|----------------------------------------------------------------------------------
D|--6--4--6-----6--4--6-----6--4--6--4--6--7--7--7--6h7p6p4-------------------------
A|-----------4-----------4-----------------------------------6v--7--6h7p6--4--2-----
E|----------------------------------------------------------------------------------



E|---------------------------------------------------------
B|---------------------------------------------------------
G|-------------------------------------------------7--9--8b
D|--6--4--6-----6--4--6-----6--4--8b6--4--7--7--7----------
A|-----------4-----------4---------------------------------
E|---------------------------------------------------------



E|-----------0-------------0-------------0----0--
B|--------0-------------0-------------2-------0--
G|-----4-------------5-------------3----------0--
D|--2-------------2-------------4----------------
A|-----------------------------------------------
E|-----------------------------------------------



E|----------------------------------------------------------------
B|----------------------------------------------------------------
G|----------------------------------------------------------------
D|--11--11--11--11--11\7--7--7--7--7/9--9--9--9--9\6--6--6--6--6--
A|--11--11--11--11--11-7--7--7--7--7-9--9--9--9--9-6--6--6--6--6--
E|--9---9---9---9---9--5--5--5--5--5-7--7--7--7--7-4--4--4--4--4--



E|----------------------------------------------------------------
B|----------------------------------------------------------------
G|----------------------------------------------------------------
D|--11--11--11--11--11\7--7--7--7--7/9--9--9--9--9\8--8--8--8--8--
A|--11--11--11--11--11-7--7--7--7--7-9--9--9--9--9-8--8--8--8--8--
E|--9---9---9---9---9--5--5--5--5--5-7--7--7--7--7-6--6--6--6--6--



E|--------------6--7--4--6--2v----6p5h6v--
B|--4--4--6--7----------------------------
G|----------------------------------------
D|----------------------------------------
A|----------------------------------------
E|----------------------------------------



E|--------------6--7--4--6--2v------------------------------
B|--4--4--6--7----------------------7p6h7--4h5p4--6--2------
G|------------------------------------------------------3v--
D|----------------------------------------------------------
A|----------------------------------------------------------
E|----------------------------------------------------------



E|-------------------------------------------------------------------------------
B|-------------------------------------------------------------------------------
G|-------------------------------------------------------------------------------
D|--6--4--6-----6--4--6-----6--4--6--4--6--7--7--7--6h7p6p4----------------------
A|-----------4-----------4-----------------------------------6--7--6h7p6--4--2v--
E|-------------------------------------------------------------------------------



E|---------------------------------------------------------
B|---------------------------------------------------------
G|-------------------------------------------------7--9--8b
D|--6--4--6-----6--4--6-----6--4--8b6--4--7--7--7----------
A|-----------4-----------4---------------------------------
E|---------------------------------------------------------



E|-----------------------------------------------------------------------------------
B|--9--7--9-----9--7--9-----9--7--9--7--9--10--10--10--9h10p9--7---------------------
G|-----------6-----------6----------------------------------------8--9--8h9p8--6--4--
D|-----------------------------------------------------------------------------------
A|-----------------------------------------------------------------------------------
E|-----------------------------------------------------------------------------------



E|-----------------------------------------------------10--12--11b
B|--9--7--9-----9--7--9-----9--7--11b9--7--10--10--10-------------
G|-----------6-----------6----------------------------------------
D|----------------------------------------------------------------
A|----------------------------------------------------------------
E|----------------------------------------------------------------



E|------------------------
B|------------------------
G|------------------------
D|--2---------------------
A|--2---------------------
E|--0---------------------



E|------------------------------------------------------------------------------
B|------------------------------------------------------------------------------
G|------------------------------------------------------------------------------
D|--5--------6--------8--------9--------8--------9--------11--------12--12--12--
A|--5--------6--------8--------9--------8--------9--------11--------12--12--12--
E|--3--0--0--4--0--0--6--0--0--7--0--0--6--0--0--7--0--0--9---0--0--10--10--10--



E|--------------------------------------------------------
B|--------------------------------------------------------
G|--------------------------------------------------------
D|--------------------------------------------------------
A|--3--3--3--3--4--4--4--4--6--6--6--6--7--7--7--7--7-----
E|--------------------------------------------------------



E|------------------------------------------------------
B|------------------------------------------------------
G|------------------------------------------------------
D|------------------------------------------------------
A|--6--6--6--6--7--7--7--7--9--9--9--9--10--10--10--10--
E|------------------------------------------------------



E|--------------------------------------------------------------------------------------------
B|--7--5--7--------7--5--7--------7--5--7-----5--7--8-----8-----8--7--3-----------5--3--------
G|--6--4--6--------6--4--6--------6--4--6-----4--6--7--7--7--7--7--6--2--2--2--2--4--2--2--2--
D|-----------0--0-----------0--0-----------0--------------------------------------------------
A|--------------------------------------------------------------------------------------------
E|--------------------------------------------------------------------------------------------



E|--------------------------------------------------------------------------------------------
B|--7--5--7--------7--5--7--------7--5--7-----5--8-----8-----8--7--5--3-----------5--3--------
G|--6--4--6--------6--4--6--------6--4--6-----4--7--7--7--7--7--6--4--2--2--2--2--4--2--2--2--
D|-----------0--0-----------0--0-----------0--------------------------------------------------
A|--------------------------------------------------------------------------------------------
E|--------------------------------------------------------------------------------------------



E|--2--
B|--4--
G|--3--
D|--0--
A|-----
E|-----



E|------------------------------------------------------------------------------------
B|------------------------------------------------------------------------------------
G|------------------------------------------------------------------------------------
D|--6--4--6--------6--4--6--------6--4--6--4--6--7--7--7--6h7p6p4---------------------
A|-----------4--4-----------4--4-----------------------------------6--7--6h7p6--4--2--
E|------------------------------------------------------------------------------------



E|------------------------------------------------------------
B|------------------------------------------------------------
G|-------------------------------------------------7--9--8b---
D|--6--4--6-----6--4--6-----6--4--8b6--4--7--7--7-------------
A|-----------4-----------4------------------------------------
E|------------------------------------------------------------



E|---------------------------------------------------------------------------------------------------------------------------------10--12--11--
B|--9--7--9-----9--7--9-----9--7--9--7--9--10--10--10--9h10p9p7---------------------9--7--9-----9--7--9-----9--7--11b9--7--10--10--------------
G|-----------6-----------6---------------------------------------8--9--8h9p8--6--4-----------6-----------6-------------------------------------
D|---------------------------------------------------------------------------------------------------------------------------------------------
A|---------------------------------------------------------------------------------------------------------------------------------------------
E|---------------------------------------------------------------------------------------------------------------------------------------------



E|--------------------------------9--9--11--13--11-----
B|--2--2--4--6--4v--5--5--7--8--7b---------------------
G|-----------------------------------------------------
D|-----------------------------------------------------
A|-----------------------------------------------------
E|-----------------------------------------------------



E|---------
B|---------
G|---------
D|--11--11\
A|--11--11-
E|--9---9--
http://www.guitartabcreator.com
Guitar Tab Creator is intended to store guitar tab created through the tool. It currently does not support in-line text editing. Any text you place in here will be lost. If you need to comment on your tab, please use the "Tab Notes" section located below.