Heinrich Pasha

(/) Slide Up  (\) Slide Down  (h) Hammer On  (p) Pull Off  (b) Bend (r) Release (v) Vibrato

E|-5-----5-----5-----0-----0-----0-----5-----5-----7-----7-----8-----8-----7-----7-----
B|---5-----5-----5-----0-----0-----0-----5-----5-----5-----5-----5-----5-----5-----5---
G|-----5-----5-----5-----0-----0-----0-----5-----5-----5-----5-----5-----5-----5-----5-
D|-------------------------------------------------------------------------------------
A|-------------------------------------------------------------------------------------
E|-------------------------------------------------------------------------------------



E|-5---5---5---5---7---7---7---5---5---5---5---8---8---8---7---7---7---5-0-7-8-
B|---5---5---5---5---5---5---5---5---5---5---5---5---5---5---5---5---5-5-0-5-5-
G|-----------------------------------------------------------------------------
D|-----------------------------------------------------------------------------
A|-----------------------------------------------------------------------------
E|-----------------------------------------------------------------------------



E|-5-5-5-7-7-8-8-5-5-5-7-8-0-8-7-5-7-5-7-5-8-5-8-5-
B|-5-5-5-5-5-5-5-5-5-5-5-5-0-5-5-5-5-5-5-5-5-5-5-5-
G|-------------------------------------------------
D|-------------------------------------------------
A|-------------------------------------------------
E|-------------------------------------------------



E|--5--5--5--5--5--7--7--7--7--7--8--8--8--8--8--10--10--10--10--10--12--12--12--12--12--10--8--7--5--
B|--5--5--5--5--5--5--5--5--5--5--5--5--5--5--5--10--10--10--10--10--12--12--12--12--12--10--5--5--5--
G|--5--5--5--5--5--5--5--5--5--5--5--5--5--5--5--10--10--10--10--10--12--12--12--12--12--10--5--5--5--
D|--0--0--0--0--0--0--0--0--0--0--0--0--0--0--0--0---0---0---0---0---0---0---0---0---0---0---0--0--0--
A|--0--0--0--0--0--0--0--0--0--0--0--0--0--0--0--0---0---0---0---0---0---0---0---0---0---0---0--0--0--
E|--0--0--0--0--0--0--0--0--0--0--0--0--0--0--0--0---0---0---0---0---0---0---0---0---0---0---0--0--0--
http://www.guitartabcreator.com
Guitar Tab Creator is intended to store guitar tab created through the tool. It currently does not support in-line text editing. Any text you place in here will be lost. If you need to comment on your tab, please use the "Tab Notes" section located below.