Saving Private Rhode

INTRO

E|---------------------------------------------------------------
B|---------------------------------------------------------------
G|--4-------4-------4-------4-------4-------4-------4--4--4--4--4
D|-5-5-5-5-5-5-5-5-5-5-5-5-5-5-5-5-5-5-5-5-5-5-5-5-5--5--5--5--5-
A|3---3-3-3---3-3-5---5-5-5---5-5-0---0-0-0---0-0----------------
E|------------------------------------------------3--3--3--3--3--

E|---------------------------------------------------------------
B|---------------------------------------------------------------
G|--4-------4-------4-------4-------4-------4-------0--0--0--0--0
D|-5-5-5-5-5-5-5-5-5-5-5-5-5-5-5-5-5-5-5-5-5-5-5-5-5--5--5--5--5-
A|3---3-3-3---3-3-5---5-5-5---5-5-0---0-0-0---0-0----------------
E|------------------------------------------------3--3--3--3--3--

VERSE (x2)

E|--------------------------------------------------------------------
B|--------------------------------------------------------------------
G|5-5-5555-555-555-5-5-5555-555-555-5-5-5555-555-555-5-5-555-5-555-555
D|5-5-5555-555-555-5-5-5555-555-555-5-5-5555-555-555-5-5-555-5-555-555
A|3-3-3333-333-333------------------5-5-5555-555-555------------------
E|-----------------3-3-3333-333-333------------------5-5-555-3-333-333
D D DUDU UDU UDU D D DUDU UDU UDU D D DUDU UDU UDU D D DUD U UDU UDU
Guitar Tab Creator is intended to store guitar tab created through the tool. It currently does not support in-line text editing. Any text you place in here will be lost. If you need to comment on your tab, please use the "Tab Notes" section located below.