Don't Stop Believin' - Journey

(/) Slide Up  (\) Slide Down  (h) Hammer On  (p) Pull Off  (b) Bend (r) Release (v) Vibrato


E|----------------------------------------------------------------------------
B|----------------------------------------------------------------------------
G|----------------------------------------------------------------------------
D|-----------------1-----1--2-----1--2-----------------1--------------1--2----
A|-----------2--4-----4--------0-----------------2--4--------6----------------
E|--0--2--4-----------------------------0--2--4-----------4-----4--5----------



E|-----------------------------------------------------------------------------------------------
B|-----5-----------------------------------------------------------------------------------------
G|-----------------------------------------------------------------------------------------------
D|--------------------------1--------1--2--------1--2-----------------------1--------------1--2--
A|-----------------2--2--4-----4--4--------0--4--------------------2--2--4--------6--------------
E|--0-----0--2--4--------------------------------------0--0--2--4--------------4-----4--5--------



E|--------------------------------------------------------------------------11--12--
B|--10--9-----10--9--10--9----------------------10--9-----10--9---------12----------
G|---------9----------------11--9--8--9------9---------9---------11--9--------------
D|---------------------------------------11-----------------------------------------
A|----------------------------------------------------------------------------------
E|----------------------------------------------------------------------------------
http://www.guitartabcreator.com
Guitar Tab Creator is intended to store guitar tab created through the tool. It currently does not support in-line text editing. Any text you place in here will be lost. If you need to comment on your tab, please use the "Tab Notes" section located below.