Hard to Swallow Bass

(/) Slide Up  (\) Slide Down  (h) Hammer On  (p) Pull Off  (b) Bend (r) Release (v) Vibrato


E|--------------------------------------------------------------
B|--------------------------------------------------------------
G|--------------------------------------------------------------
D|--------------5-----------------------------5-----------------
A|--------5--7-----------7-----7--------5--7-----------7--------
E|--0--0-----------0--0-----0-----5--5-----------5--5-----5--3--



E|-----------------------------------------------------------------
B|-----------------------------------------------------------------
G|-----------------------------------------------------------------
D|-----------------------------------------------------------------
A|--------7-----7--------7-----7--------7--------------5-----------
E|--0--0-----0-----0--0-----0-----5--5-----5--3--3--3-----3--3--3--
http://www.guitartabcreator.com
Guitar Tab Creator is intended to store guitar tab created through the tool. It currently does not support in-line text editing. Any text you place in here will be lost. If you need to comment on your tab, please use the "Tab Notes" section located below.