metal riff

(/) Slide Up  (\) Slide Down  (h) Hammer On  (p) Pull Off  (b) Bend (r) Release (v) Vibrato


E|-----------------------------------------------------------------------------------------
B|-----------------------------------------------------------------------------------------
G|-------2p0-------------------------------------------------2p0---------------------------
D|-------------------5p4---------4p2---2-----2h4-------------------------5p4---------4p2---
A|-----------------------------------------------------------------------------------------
E|-2-2-2-----2-2-2-2-----2-2-2-2-----2---2-2-----2-3-2-2-2-2-----2-2-2-2-----2-2-2-2-----2-



E|-----------------------------------------------------------------------------------------
B|-----------------------------------------------------------------------------------------
G|-------------------------2p0-------------------------------------------------2p0---------
D|---2-----2h4-------------------------5p4---------4p2---2-----2h4-------------------------
A|-----------------------------------------------------------------------------------------
E|-2---2-2-----2-3-2-2-2-2-----2-2-2-2-----2-2-2-2-----2---2-2-----2-3-2-2-2-2-----2-2-2-2-



E|--------------------------------
B|--------------------------------
G|--------------------------------
D|-5p4---------4p2---2-----2h4v---
A|--------------------------------
E|-----2-2-2-2-----2---2-2--------
http://www.guitartabcreator.com
Guitar Tab Creator is intended to store guitar tab created through the tool. It currently does not support in-line text editing. Any text you place in here will be lost. If you need to comment on your tab, please use the "Tab Notes" section located below.