s

(/) Slide Up  (\) Slide Down  (h) Hammer On  (p) Pull Off  (b) Bend (r) Release (v) Vibrato

E|--0-----------------0--0------------------------------------------------------------------0--3--8-----
B|--1-----------------1-----3--1--------------5b3-------0--1--1--------------------------0--------------
G|--0--0-----------0--0----------------------------4b2-----------0--------0-----------0-----------------
D|--2-----2-----2--2--------------2\4\5b5--5------------------------2--------2-----2--------------------
A|--3--------3--3--3---------------------------------------------------3--------3-----------------------
E|--3-----------3---------------------------------------------------------------------------------------



E|--12------------------------------12--------------------------------------------------15--12-----
B|------15--13--------------------------15--13------12--13--13----------------------13-------------
G|--------------------------12--12--------------14--------------12--------------12-----------------
D|--------------14--16--17------------------------------------------14------14---------------------
A|----------------------------------------------------------------------15-------------------------
E|-------------------------------------------------------------------------------------------------



E|--8--3--0-----------------------0-----------------0--------------------------------
B|-----------1-----------------1-----3--1--------------3--1--0-----0--1--1-----------
G|--------------0-----------0-----------------------------------2-----------0--------
D|-----------------2-----2-----------------2--4--5-----------------------------2-----
A|--------------------3-----------------------------------------------------------3--
E|-----------------------------------------------------------------------------------
http://www.guitartabcreator.com
Guitar Tab Creator is intended to store guitar tab created through the tool. It currently does not support in-line text editing. Any text you place in here will be lost. If you need to comment on your tab, please use the "Tab Notes" section located below.