need you now

(/) Slide Up  (\) Slide Down  (h) Hammer On  (p) Pull Off  (b) Bend (r) Release (v) Vibrato


E|--0-----------0-------------
B|--5--4--5-----5--3\4--5-----
G|--6-----------6----------4--
D|--7--------7--6-------------
A|--------------4-------------
E|----------------------------



E|----------------------------------------------------------------------
B|----------------------------------------------------------------------
G|--4\6--6--4--6--4--6--4--6--4\6--6--9--9\11--11\13--13b14--13--11--9--
D|----------------------------------------------------------------------
A|----------------------------------------------------------------------
E|----------------------------------------------------------------------



E|--0--------0--------------------------0----0--
B|--5--------5-----------------------0-------5--
G|--6--------6-------------------------------6--
D|--7--------6------4\6--4--2----------------6--
A|-----------4-----------------2--0----------4--
E|----------------------------------------------
http://www.guitartabcreator.com
Guitar Tab Creator is intended to store guitar tab created through the tool. It currently does not support in-line text editing. Any text you place in here will be lost. If you need to comment on your tab, please use the "Tab Notes" section located below.