fast car

(/) Slide Up  (\) Slide Down  (h) Hammer On  (p) Pull Off  (b) Bend (r) Release (v) Vibrato

E|---------------------------------
B|----0h1--0--3--3--8--8--7--7-----
G|----0----0--------0-----0-----0--
D|------------------------0--------
A|----3-------------7--------------
E|------------3--------------------



E|-----------------------------------
B|--0h1--0--3--3--8--10--8--7--8--7--
G|--0----0--------0---------0--------
D|--------------------------0--------
A|--3-------------7------------------
E|----------3------------------------
http://www.guitartabcreator.com
Guitar Tab Creator is intended to store guitar tab created through the tool. It currently does not support in-line text editing. Any text you place in here will be lost. If you need to comment on your tab, please use the "Tab Notes" section located below.