Where I Want To Be

(/) Slide Up  (\) Slide Down  (h) Hammer On  (p) Pull Off  (b) Bend (r) Release (v) Vibrato


E|---------------------
B|---------------------
G|--5--8--7--10--8--8--
D|---------------------
A|---------------------
E|---------------------



E|----------------------------------------------------------------------------
B|--11--11--13--13--15--15--15--15--13--15--16--16--16--16--16--13--11--9--8--
G|----------------------------------------------------------------------------
D|----------------------------------------------------------------------------
A|----------------------------------------------------------------------------
E|----------------------------------------------------------------------------



E|--------------------------------------------------------------------------
B|--11--11--11--11--13--13--13--13--11--11--13--11--11--8--11--8--11--9--8--
G|--------------------------------------------------------------------------
D|--------------------------------------------------------------------------
A|--------------------------------------------------------------------------
E|--------------------------------------------------------------------------



E|----------------------------------------------15--15--13--13--11--11--10--11--10--8--10--11--
B|--11--11--13--13--13--11--13--15--15--13--15-------------------------------------------------
G|---------------------------------------------------------------------------------------------
D|---------------------------------------------------------------------------------------------
A|---------------------------------------------------------------------------------------------
E|---------------------------------------------------------------------------------------------



E|----------------------------8--11--10--13--11--11--
B|--8---------8--9--11--9--8-------------------------
G|-----8--10-----------------------------------------
D|---------------------------------------------------
A|---------------------------------------------------
E|---------------------------------------------------
http://www.guitartabcreator.com
Guitar Tab Creator is intended to store guitar tab created through the tool. It currently does not support in-line text editing. Any text you place in here will be lost. If you need to comment on your tab, please use the "Tab Notes" section located below.