Song For A Dancer

(/) Slide Up  (\) Slide Down  (h) Hammer On  (p) Pull Off  (b) Bend (r) Release (v) Vibrato


E|--------------------------------------------
B|--------------5--------------7--8--7--5-----
G|--------4--5-----------4--5--------------7--
D|--5--7-----------5--7-----------------------
A|--------------------------------------------
E|--------------------------------------------



E|--------------------------------------
B|--------------------------------------
G|--7--5--7--4--5--2--4--5--7--4--5--2--
D|--------------------------------------
A|--------------------------------------
E|--------------------------------------



E|--10--10--10--10--8--7--7--5--3--2--3--2--3--2--0--2--
B|--10--10--10--10--------------------------------------
G|--11--------------------------------------------------
D|--12--------------------------------------------------
A|------------------------------------------------------
E|------------------------------------------------------
http://www.guitartabcreator.com
Guitar Tab Creator is intended to store guitar tab created through the tool. It currently does not support in-line text editing. Any text you place in here will be lost. If you need to comment on your tab, please use the "Tab Notes" section located below.