Outside My Window

(/) Slide Up  (\) Slide Down  (h) Hammer On  (p) Pull Off  (b) Bend (r) Release (v) Vibrato


E|--6--11--
B|--6--11--
G|--7--11--
D|--8--13--
A|---------
E|---------



E|--8---6--6--
B|--10--8--6--
G|--10--8--7--
D|---------8--
A|------------
E|------------



E|--10--11--6--10--11--5-----------------------------
B|--11--11--6--11--11--6--6--8--6--6--8--6-----------
G|--12--12--7--12--12--5--5-----5--5-----5--7--5-----
D|----------8-------------------------------------8--
A|---------------------------------------------------
E|---------------------------------------------------



E|--6--11--
B|--6--11--
G|--7--11--
D|--8--12--
A|---------
E|---------



E|--8---6--3--
B|--10--8--3--
G|--10--8--3--
D|---------5--
A|------------
E|------------
http://www.guitartabcreator.com
Guitar Tab Creator is intended to store guitar tab created through the tool. It currently does not support in-line text editing. Any text you place in here will be lost. If you need to comment on your tab, please use the "Tab Notes" section located below.