Une belle histoire - passages

(/) Slide Up  (\) Slide Down  (h) Hammer On  (p) Pull Off  (b) Bend (r) Release (v) Vibrato


E|-------------------------------------10--13--12------
B|--------------------------9--12--10--------------13--
G|----------------10--9--7-----------------------------
D|--9--10--12--9---------------------------------------
A|-----------------------------------------------------
E|-----------------------------------------------------



E|----------------
B|----------------
G|--9--7----------
D|----------5--7--
A|----------------
E|----------------
http://www.guitartabcreator.com
Guitar Tab Creator is intended to store guitar tab created through the tool. It currently does not support in-line text editing. Any text you place in here will be lost. If you need to comment on your tab, please use the "Tab Notes" section located below.