Longtime Sunshine solo

(/) Slide Up  (\) Slide Down  (h) Hammer On  (p) Pull Off  (b) Bend (r) Release (v) Vibrato

E|-----------------------------------------------------------------------------------------------
B|--4----3h4p3-------3----3----------------------------------------------------------------------
G|--5-----------5------------5--3--5----3----3-------------------------------------------0--3/---
D|------------------------------------------------6--5h6p5--3----3---------------3--5------------
A|------------------------------------------------------------------6--5------6------------------
E|-----------------------------------------------------------------------------------------------



E|-------------------------------------------------------------------------
B|------------------------------4/6---------4-----6p4-----6p4-----6-----4--
G|--5\3----5--3----0--7\5----5-----------5-----5-------5-------5-----5-----
D|-------------------------------------------------------------------------
A|-------------------------------------------------------------------------
E|-------------------------------------------------------------------------



E|------------------------------------------------------
B|--9/11----8h9p8---------------------------------------
G|-----------------10----10p8------10p8------10------8--
D|-----------------------------10--------10------10-----
A|------------------------------------------------------
E|------------------------------------------------------
http://www.guitartabcreator.com
Guitar Tab Creator is intended to store guitar tab created through the tool. It currently does not support in-line text editing. Any text you place in here will be lost. If you need to comment on your tab, please use the "Tab Notes" section located below.