Je suis parti- passages

(/) Slide Up  (\) Slide Down  (h) Hammer On  (p) Pull Off  (b) Bend (r) Release (v) Vibrato


E|--------------------------------------------------------
B|--------------------------2--------1--------------------
G|--------------1--0--------3-----5-----3--1-----1--------
D|-----------------------------6--5-----------3-----1--3--
A|-----3--4--3--------3--4-----6--3-----------------------
E|--1--------------------------4--------------------------



E|------------------------------
B|------------------------------
G|------------------1--3--1-----
D|--1--3------1--3-----------1--
A|------------------------------
E|------------------------------



E|-----------------------------
B|--------------------------2--
G|-----------------1--------3--
D|-----------------------------
A|-----3--4--3--4-----3--4-----
E|--1--------------------------



E|---------------------------------------------
B|---------------------------------------------
G|--------------1--3--1---------------------1--
D|--------1--3-----------3------1--------1-----
A|--1--3---------------------------1--3--------
E|---------------------------------------------



E|---------------------------------------------------------
B|-----------1---------------------------------------------
G|---------------------------1--1--3--3h4--3--1----1-------
D|------------------------3----------------------3---1-----
A|--3--4--3-----3--4-----------------------------------3---
E|---------------------------------------------------------
http://www.guitartabcreator.com
Guitar Tab Creator is intended to store guitar tab created through the tool. It currently does not support in-line text editing. Any text you place in here will be lost. If you need to comment on your tab, please use the "Tab Notes" section located below.