Acompa├▒amiento Blues en LA

(/) Slide Up  (\) Slide Down  (h) Hammer On  (p) Pull Off  (b) Bend (r) Release (v) Vibrato
E|----------------------------------7--5----------------------9--7-------------------------------
B|--------7--5----------------------7--5----------------------9--7-------------------------------
G|--------6--4----------------------7--5-------------2--------9--7-------------------------------
D|--------7--5-------------2--0--0--------0--0--3h4----------------------------------------5-----
A|--0--0--------0--0--3h4-----------------------------------------------------------2------------
E|------------------------------------------------------0--0----------0--0--3--3h4---------------



E|-----------------------------------------------
B|-----------------------------------------------
G|--2--------2--------2-----2------0--1--1-------
D|-----5--4-----4--3-----3---------------2-------
A|---------------------------------------2-------
E|---------------------------------------0-------
http://www.guitartabcreator.com
Guitar Tab Creator is intended to store guitar tab created through the tool. It currently does not support in-line text editing. Any text you place in here will be lost. If you need to comment on your tab, please use the "Tab Notes" section located below.