solitude by singularity

(/) Slide Up  (\) Slide Down  (h) Hammer On  (p) Pull Off  (b) Bend (r) Release (v) Vibrato
E|--------------------------------------------------------
B|-----4-----4--4-----4--------4--------4--------4--------
G|-----1-----1--1-----1-----1-----1-----1-----1-----1-----
D|--3-----3--------3-----2-----------2--2--2-----------2--
A|--------------------------------------------------------
E|--------------------------------------------------------



E|--------------------------------------------------
B|--4-----------------------------------------------
G|--1-----4-----4--------4-----5-----5--------5--4--
D|--2-----2-----2-----2--------2-----2-----2--------
A|-----4-----4-----4--------4-----4-----4-----------
E|--------------------------------------------------



E|------------------------------------------------------
B|--------4--4--4--4--4-----4--4------------------------
G|--------4--4--4--4--4-----4--4--4--4--4-------4--4--4-
D|--2--1--2--2--2--2--2--2--2--2--4--4--4-------4--4--4-
A|--------------------------------2--2--2----2--2--2--2-
E|------------------------------------------------------



E|--
B|--
G|--
D|--
A|--
E|--
http://www.guitartabcreator.com
Guitar Tab Creator is intended to store guitar tab created through the tool. It currently does not support in-line text editing. Any text you place in here will be lost. If you need to comment on your tab, please use the "Tab Notes" section located below.