Wharf Rat

(/) Slide Up  (\) Slide Down  (h) Hammer On  (p) Pull Off  (b) Bend (r) Release (v) Vibrato
E|--0--0--0--12--7---------------------0-----------------------
B|--0--0--0--10--10-----------------------0--------8--7--------
G|--2--6--9--9---9---4--5--4--------6--------------------7-----
D|--2--7--7------7------------5--7-----------5--7-----------7--
A|-------------------------------------------------------------
E|-------------------------------------------------------------



E|-------------------------5---------------5--12------10--5--
B|--8--7----------8--7------------8--7-----5--10--12--10--5--
G|--------7--9----------7---------------7---------9---9---7--
D|------------------------------------------------9-------7--
A|------------------------------------------------12---------
E|-----------------------------------------------------------



E|-------------12---------12--12--12--
B|---------10------10---------10--10--
G|------9--------------9--------------
D|--11--------------------------------
A|------------------------------------
E|------------------------------------



E|----------------------------------------
B|--------8--7----------------8--7--------
G|--------------7-------------------7--9--
D|-----------------7----------------------
A|--5--7----------------5--7--------------
E|----------------------------------------



E|------------------12--14--15--14------12----17--15--14-----------------
B|------12--14--15------------------15--------------------17--15--14-----
G|--14----------------------------------------------------------------14---
D|-----------------------------------------------------------------------
A|-----------------------------------------------------------------------
E|-----------------------------------------------------------------------
http://www.guitartabcreator.com
Guitar Tab Creator is intended to store guitar tab created through the tool. It currently does not support in-line text editing. Any text you place in here will be lost. If you need to comment on your tab, please use the "Tab Notes" section located below.