test

(/) Slide Up  (\) Slide Down  (h) Hammer On  (p) Pull Off  (b) Bend (r) Release (v) Vibrato


E|------------------------------------------
B|----------------------11--11--10----------
G|--9--9--7--8--11--11--------------10--11--
D|------------------------------------------
A|------------------------------------------
E|------------------------------------------



E|--------------11----------------------
B|--10------12------11----------11------
G|------11--------------11--11------12--
D|--------------------------------------
A|--------------------------------------
E|--------------------------------------



E|----------------------
B|------19--19----------
G|--18----------18--19--
D|----------------------
A|----------------------
E|----------------------
http://www.guitartabcreator.com
Guitar Tab Creator is intended to store guitar tab created through the tool. It currently does not support in-line text editing. Any text you place in here will be lost. If you need to comment on your tab, please use the "Tab Notes" section located below.