The Other One

(/) Slide Up  (\) Slide Down  (h) Hammer On  (p) Pull Off  (b) Bend (r) Release (v) Vibrato


E|---------------------------------------------------------------------------------------------------------------12--12----------------------------------
B|-----------------------------------------------------------------------------------------------10--11--12--------------15--15--14--14--12--12----------
G|--------7--------9--------7--------9-----------------------------------4--5--7------9--11--12--------------------------------------------------14--14--
D|--8--9-----8--9-----8--9-----8--9--------------------------------5--7----------------------------------------------------------------------------------
A|----------------------------------------------7--7------7--7--7----------------------------------------------------------------------------------------
E|------------------------------------------10--------10-------------------------------------------------------------------------------------------------



E|--7--7---7------10--
B|--7--10--8--12--12--
G|--9--7---7--11--11--
D|--9--9---9--12--12--
A|--------------------
E|--------------------
http://www.guitartabcreator.com
Guitar Tab Creator is intended to store guitar tab created through the tool. It currently does not support in-line text editing. Any text you place in here will be lost. If you need to comment on your tab, please use the "Tab Notes" section located below.