My Morphine

(/) Slide Up  (\) Slide Down  (h) Hammer On  (p) Pull Off  (b) Bend (r) Release (v) Vibrato

E|--------------------
B|--3--1--5-----------
G|--4-----------------
D|--5--2--5--4--0--5--
A|--------------------
E|--------------------



E|--------------
B|-----3--5-----
G|-----------4--
D|--5--5--5--5--
A|--------------
E|--3-----------
http://www.guitartabcreator.com
Guitar Tab Creator is intended to store guitar tab created through the tool. It currently does not support in-line text editing. Any text you place in here will be lost. If you need to comment on your tab, please use the "Tab Notes" section located below.