Morning Dew

(/) Slide Up  (\) Slide Down  (h) Hammer On  (p) Pull Off  (b) Bend (r) Release (v) Vibrato


E|----------------------------------------------------------------------------------------
B|--5-----------5----------------------------------5--6--5-----------------8--7--5--------
G|-----7--5--------7--5---------------5---------------------7--5--7-----------------5--7--
D|-----------7-----------7------5--7-----5--7---------------------------------------------
A|----------------------------------------------------------------------------------------
E|----------------------------------------------------------------------------------------



E|------------------------------------------------------
B|--5--3--2---------------------------------------------
G|-----------4------------------6--7--6--5--4-----------
D|--------------5--4--5--7---------------------7--5--7--
A|------------------------------------------------------
E|------------------------------------------------------



E|--10--8---7--------------------------------------------
B|--10--8---8--7--10--8--7-----10--8--7-----10--8--7-----
G|--11--9---7--7------------7------------7------------7--
D|--12--10-----7-----------------------------------------
A|-------------------------------------------------------
E|-------------------------------------------------------



E|----------------8---7--10---------8---------8---------8--
B|------------10--8---9--10--8--10-----8--10-----8--10-----
G|--7--9--10--10--9---9--11--------------------------------
D|------------10--10-----12--------------------------------
A|------------8--------------------------------------------
E|---------------------------------------------------------



E|----------12--10----------12--10--
B|----------------------------------
G|------11--------------11----------
D|--12--------------12--------------
A|----------------------------------
E|----------------------------------
http://www.guitartabcreator.com
Guitar Tab Creator is intended to store guitar tab created through the tool. It currently does not support in-line text editing. Any text you place in here will be lost. If you need to comment on your tab, please use the "Tab Notes" section located below.