Love Ain't For Keeping

(/) Slide Up  (\) Slide Down  (h) Hammer On  (p) Pull Off  (b) Bend (r) Release (v) Vibrato
E|-----5-----5-----------------
B|-----------------------------
G|--4-----4-----4--2--------2--
D|--------------------5--4-----
A|-----------------------------
E|-----------------------------



E|-----------------------------------------5--------5-----------5------------------------
B|--8--7------------------------------------------------------------------------5--------
G|--------9--7----------5--4--2------5--4-----5--4-----------4-----4--2------4-----4--2--
D|---------------------------------------------------------------------------------------
A|---------------------------------------------------------------------------------------
E|---------------------------------------------------------------------------------------



E|-----------------|---------------------------------------------------------------
B|-----------------|-------------------17------------------------------------------
G|--5--4--2-----2--|-----------17--16------16--14------5--4--2------5--4--2-----2--
D|-----------5-----|---------------------------------------------------------5-----
A|-----------------|---------------------------------------------------------------
E|-----------------|---------------------------------------------------------------



E|--------------------------|--|----------------------------------------------------------------------------
B|--------5-----------------|--|----------------------17b17--------------17b17--15----------15--------------
G|--5--4-----5--4--2-----2--|--|--17--16--14------14---------17--16--14-------------17--16------17--16--14--
D|--------------------5-----|--|--------------17------------------------------------------------------------
A|--------------------------|--|----------------------------------------------------------------------------
E|--------------------------|--|----------------------------------------------------------------------------



E|------------------------20--17------20--17------20--17----------------------------------------------------------
B|--20b20--20b20--17--17----------17----------17----------17----------------------15--15--15----------------------
G|------------------------------------------------------------17--16--14------14--------------17--16--14------14--
D|------------------------------------------------------------------------17------------------------------17------
A|----------------------------------------------------------------------------------------------------------------
E|----------------------------------------------------------------------------------------------------------------



E|--------------------------------------------------
B|--------------------------------------------------
G|--17--16--14--17--16--14--17--16--14----------14--
D|--------------------------------------17--16------
A|--------------------------------------------------
E|--------------------------------------------------



E|---------------------5--------------------------
B|------------------------------------------------
G|--17--16--14------4-----5--4--2--5--4--2-----2--
D|------------------------------------------5-----
A|------------------------------------------------
E|------------------------------------------------



E|------17-----------------------------------------
B|----------------------------------------------2--
G|--16------17--16--14--------------------------2--
D|----------------------17--16--14--------------2--
A|----------------------------------15--14--12-----
E|-------------------------------------------------



E|------------------------------------------------------17--20--20--
B|------17--------------20--20--20--19--17------19--20--------------
G|--16------16--14--------------------------19----------------------
D|------------------------------------------------------------------
A|------------------------------------------------------------------
E|------------------------------------------------------------------



E|--20--19--17--15----------------------
B|------------------17--15--------------
G|--------------------------17--16--14--
D|--------------------------------------
A|--------------------------------------
E|--------------------------------------



E|-------------------------------------------------------
B|-------------------------------------------------------
G|--17--16--14--12----------12------4--2--0--------0--2--
D|------------------14--12-------------------2--0--------
A|-------------------------------------------------------
E|-------------------------------------------------------



E|--------------------------------------
B|--------------------------------------
G|--5--4--2-----2--0--0--------------0--
D|-----------4-----------4--2--0--0-----
A|--------------------------------------
E|--------------------------------------



E|--------------------------------17--20--20--17------17--
B|------------20--20--17--20--17------------------20------
G|--0--0--------------------------------------------------
D|--------------------------------------------------------
A|--------------------------------------------------------
E|--------------------------------------------------------



E|------12------12------12------12--|--|--|----------------------------------
B|--12------12------12------12------|--|--|--12--10----------10----------10--
G|----------------------------------|--|--|----------12--11------12--11------
D|----------------------------------|--|--|----------------------------------
A|----------------------------------|--|--|----------------------------------
E|----------------------------------|--|--|----------------------------------



E|---------------------------------------------------------------------------------------------
B|----------------------------------------------------------------------17b17--15--------------
G|--17--16--14------17--16--14--17--16--14------17--16--14----------14-------------17--16--14--
D|--------------17--------------------------17--------------16--17-----------------------------
A|---------------------------------------------------------------------------------------------
E|---------------------------------------------------------------------------------------------



E|--|--|--|---------------------------------------------------------------------------------
B|--|--|--|--17b17--15------15--------------------------------------------------------------
G|--|--|--|-------------17------17--16--14------14------14------14------17--16--14------14--
D|--|--|--|---------------------------------17------17------17------17--------------17------
A|--|--|--|---------------------------------------------------------------------------------
E|--|--|--|---------------------------------------------------------------------------------



E|-------------------------------------------------------
B|--17b17--15------15------------------------------------
G|-------------17------17--14------17h17h17--14------14--
D|-----------------------------------------------17------
A|-------------------------------------------------------
E|-------------------------------------------------------



E|------------------------------------------------------
B|--20--20--17------17----------------------------------
G|--------------19------19--17------------------17--19--
D|------------------------------19--17--19--17----------
A|------------------------------------------------------
E|------------------------------------------------------
http://www.guitartabcreator.com
Guitar Tab Creator is intended to store guitar tab created through the tool. It currently does not support in-line text editing. Any text you place in here will be lost. If you need to comment on your tab, please use the "Tab Notes" section located below.