Lines on My Face

(/) Slide Up  (\) Slide Down  (h) Hammer On  (p) Pull Off  (b) Bend (r) Release (v) Vibrato
E|--15--14--12------------------------------------------------------------------
B|--------------15--13--12----------------------------------------------12--13--
G|--------------------------14--12--14------14b14b14--12--14----12--14----------
D|------------------------------------------------------------------------------
A|------------------------------------------------------------------------------
E|------------------------------------------------------------------------------



E|------12--13------17b17b15------14------14--15----15b15--14----------------------
B|--15------------------------17------17-----------------------17--15--------------
G|---------------------------------------------------------------------17--16--14--
D|---------------------------------------------------------------------------------
A|---------------------------------------------------------------------------------
E|---------------------------------------------------------------------------------



E|----------------------15--------------------------------------------------
B|------------------15------17--15------------------------------------------
G|------14--16--17------------------17--16--14------14----------------------
D|--17------------------------------------------17------17--16--------------
A|--------------------------------------------------------------17--15--14--
E|--------------------------------------------------------------------------



E|--|--|-----------------------------------------------------------------------------
B|--|--|-----------------------------------------------------------------------------
G|--|--|-----------------------------------------------------------------------------
D|--|--|--------------14--14b14--15--14------14--14--15--14----------------------14--
A|--|--|--14--15--17---------------------17------------------17--15--14--15--17------
E|--|--|-----------------------------------------------------------------------------



E|------------------------------------------------------------------15--
B|--15--17--15------------------------------15------------------15------
G|--------------17--16--14------14--16--17------16--16--16--17----------
D|--------------------------17------------------------------------------
A|----------------------------------------------------------------------
E|----------------------------------------------------------------------



E|----------------15--14--12---------------------|--|--
B|----------------------------15--13--12---------|--|--
G|------14b14b12--------------------------14b12--|--|--
D|--17-------------------------------------------|--|--
A|-----------------------------------------------|--|--
E|-----------------------------------------------|--|--



E|--------------------------------------------15b15--15b15--15--14--12--------------------------
B|--------------------13--12------13--12--------------------------------15--13--12--------------
G|---------12--14b14----------14----------14----------------------------------------14--12--14--
D|--12/14---------------------------------------------------------------------------------------
A|----------------------------------------------------------------------------------------------
E|----------------------------------------------------------------------------------------------



E|----------------------12--14--15--15--12--15--12--15--12--15--15--13--12----------
B|----------12--13--15------------------------------------------------------15--12--
G|--12--14--------------------------------------------------------------------------
D|----------------------------------------------------------------------------------
A|----------------------------------------------------------------------------------
E|----------------------------------------------------------------------------------



E|------------------------------------------------------12------------------
B|------12--13--15--13--12------------------12--13--15------13--12----------
G|--14----------------------14--12--12--14--------------------------14--12--
D|--------------------------------------------------------------------------
A|--------------------------------------------------------------------------
E|--------------------------------------------------------------------------



E|--------------------------15b15--14--15--17b15--17--15--14-------------------------15--14--12--15--14--12-----
B|--13--13--13--13--13--12------------------------------------15--13--12-------------------------------------15b
G|------------------------------------------------------------------------12--14b14--------------------------14-
D|--------------------------------------------------------------------------------------------------------------
A|--------------------------------------------------------------------------------------------------------------
E|--------------------------------------------------------------------------------------------------------------



E|--12b12------12----------12-----
B|--15-----15------15--15--15b12--
G|--------------------------------
D|--------------------------------
A|--------------------------------
E|--------------------------------



E|--12--
B|--12--
G|------
D|------
A|------
E|------



E|------15--13--12--------------12-------------------------
B|------------------15--13--12------15--13--12--12---------
G|--------------------------------------------------14b14--
D|---------------------------------------------------------
A|---------------------------------------------------------
E|---------------------------------------------------------
http://www.guitartabcreator.com
Guitar Tab Creator is intended to store guitar tab created through the tool. It currently does not support in-line text editing. Any text you place in here will be lost. If you need to comment on your tab, please use the "Tab Notes" section located below.