Down By the River

(/) Slide Up  (\) Slide Down  (h) Hammer On  (p) Pull Off  (b) Bend (r) Release (v) Vibrato


E|--------0-------7------9---12--15-----------------------------------------------------------
B|--3--2--8--5----8------10--12--17-----------------------------------------------------------
G|-----2--7--6----7------9---12---------------------------------------------------------------
D|--2--2--9--7----9---------------------------------------------------------------------------
A|--2-----------------------------------------------------------------------------------------
E|--------------------------------------------------------------------------------------------



E|----7--5--15--12--15--15--15--15--15--12------12--
B|----8--5--17--15--------------------------15------
G|----7--6--0---0-----------------------------------
D|----9--7--0---0-----------------------------------
A|--------------------------------------------------
E|--------------------------------------------------



E|--12--12--12--12--10--10--10--7--7------------------------
B|------------------------------------10--8--7--8--7--------
G|----------------------------------------------------9--7--
D|----------------------------------------------------------
A|----------------------------------------------------------
E|----------------------------------------------------------



E|-----------------------
B|-------3---------8--3--
G|--3/4-----4\2h0--7--4--
D|-----------------9--5--
A|-----------------------
E|-----------------------
http://www.guitartabcreator.com
Guitar Tab Creator is intended to store guitar tab created through the tool. It currently does not support in-line text editing. Any text you place in here will be lost. If you need to comment on your tab, please use the "Tab Notes" section located below.