Test

(/) Slide Up  (\) Slide Down  (h) Hammer On  (p) Pull Off  (b) Bend (r) Release (v) Vibrato

Stave 1:

E|--------------------|-----------------|--
B|--------------------|-----------------|--
G|--5-----------------|--------1--------|--
D|-----4--------------|-----1-----------|--
A|--------3--3--3--2--|--1--------2--2--|--
E|--------------------|-----------------|--

Stave 2:

E|-----------------|--------------------|--
B|-----------------|-----------------5--|--
G|-----2--2--3-----|--------------6-----|--
D|--3-----------5--|-----2--4--4--------|--
A|-----------------|--2-----------------|--
E|-----------------|--------------------|--

http://www.guitartabcreator.com
Guitar Tab Creator is intended to store guitar tab created through the tool. It currently does not support in-line text editing. Any text you place in here will be lost. If you need to comment on your tab, please use the "Tab Notes" section located below.