Scarborough Fair

(/) Slide Up  (\) Slide Down  (h) Hammer On  (p) Pull Off  (b) Bend (r) Release (v) Vibrato

Stave 1:

E|-----0--------------|-----0--------------|-----0--------------|--
B|--------------3-----|--------------3-----|--------------3-----|--
G|--------0--------0--|--------0--------0--|--------0--------0--|--
D|-----------4--------|-----------4--------|-----------4--------|--
A|--0-----------------|--5-----------------|--0-----------------|--
E|--------------------|--------------------|--------------------|--

Stave 2:

E|--------------|-----------0--------|--0-----------0--|--------------------|--
B|-----0--------|--------0-----------|--------3--------|--0--------1--0-----|--
G|-----------0--|-----5-----------5--|-----------------|--------0--------0--|--
D|--------0-----|--7-----------7-----|-----4-----4-----|-----0-----2--0-----|--
A|--2-----------|--------------------|--0--------------|--------------------|--
E|--------------|--------------------|-----------------|--4-----------------|--

Stave 3:

E|--------------------|--------0-----3--------|--5-----------3-----|--
B|--------------1-----|-----------------------|-----0-----0-----0--|--
G|--2--------2--------|-----------------------|--------5-----------|--
D|--------2-----------|-----2-----2-----2-----|--------------------|--
A|-----0-----------2--|--3--------------------|--0-----------------|--
E|--------------------|-----------------------|--------------------|--

Stave 4:

E|--0-----2-----------|--0--------------0--|--5-----------5\|--3-----------0-----|--
B|--------------3-----|--------------0-----|-----------0----|-----------1--------|--
G|-----0-----2-----2--|-----------1--------|--------5-------|--------0--------0--|--
D|--------0-----------|--------2-----------|-----3----------|-----2--------------|--
A|--3-----------------|-----2--------------|----------------|--------------------|--
E|--------------------|--0-----------------|----------------|--------------------|--

Stave 5:

E|--0-----------------|----------------|-----------|-----------------0--|-----------------|--
B|--------3-----1-----|--0--------1p0--|--1--0-----|--------------1-----|--3-----------1--|--
G|-----0-----0-----0--|--------0-------|--------0--|--2--------2--------|-----------0-----|--
D|--------------------|-----0----------|--2--0-----|--------2-----------|--------0--------|--
A|--3-----1-----0-----|----------------|-----------|-----0--------------|-----------------|--
E|--------------------|--3-------------|--3--------|--------------------|-----3-----------|--

Stave 6:

E|--------------------|-----0--------------|-----0--------------|-----0--------------|--
B|--0-----------------|--------------3-----|--------------3-----|--------------3-----|--
G|--------2-----0-----|--------0--------0--|--------0--------0--|--------0--------0--|--
D|-----0-----0-----0--|-----------4--------|-----------4--------|-----------4--------|--
A|--------------------|--0-----------------|--5-----------------|--0-----------------|--
E|--3-----------------|--------------------|--------------------|--------------------|--

Stave 7:

E|-----------|--0--
B|-----0-----|--0--
G|-----------|--2--
D|--------0--|--2--
A|--3--------|--0--
E|-----------|-----

http://www.guitartabcreator.com
Guitar Tab Creator is intended to store guitar tab created through the tool. It currently does not support in-line text editing. Any text you place in here will be lost. If you need to comment on your tab, please use the "Tab Notes" section located below.