Pavane

(/) Slide Up  (\) Slide Down  (h) Hammer On  (p) Pull Off  (b) Bend (r) Release (v) Vibrato

Stave 1:

E|--3--------------5--2--|-----------2--2--0--0--------|--
B|-----3-----3-----5-----|--3-----5-----------------0--|--
G|--4-----4-----4-----4--|-----4-----4-----4-----0-----|--
D|--------------------2--|--4-----4-----5-----0--------|--
A|--------------3--------|--------2--------------------|--
E|--------5--------------|--2-----------2--------------|--

Stave 2:

E|--7--------------7--8--5-----|--2-----3--5-----7--3-----2--|--
B|-----5--------5-----5--------|--1--3--1--3--0--------0--3--|--
G|--5--------5-----5--------5--|-----------------7-----------|--
D|-----------------------5-----|--0-----------------4--------|--
A|--------7--------------------|-----------------------------|--
E|-----------------5-----------|--------------3--------------|--

http://www.guitartabcreator.com
Guitar Tab Creator is intended to store guitar tab created through the tool. It currently does not support in-line text editing. Any text you place in here will be lost. If you need to comment on your tab, please use the "Tab Notes" section located below.