Valerie - Bass TAB

(/) Slide Up  (\) Slide Down  (h) Hammer On  (p) Pull Off  (b) Bend (r) Release (v) Vibrato


E|--------------------------------------------------------------------------------------------
B|--------------------------------------------------------------------------------------------
G|--------------------------------------------------------------------------------------------
D|--0h1----1----1----1--1----1------1----1----1----1--1----1/2----3----3----3----3--3----3----
A|--------------------------------------------------------------------------------------------
E|--------------------------------------------------------------------------------------------



E|--------------------------------------------------------------------------------------------
B|--------------------------------------------------------------------------------------------
G|--------------------------------------------------------------------------------------------
D|--3----3----3----3--3----3\2----1----1----1----1--1----1------1----1----1----1--1----1/2----
A|--------------------------------------------------------------------------------------------
E|--------------------------------------------------------------------------------------------



E|-------------------------------------------------------------
B|-------------------------------------------------------------
G|-------------------------------------------------------------
D|--3----3----3----3--3----3------3----3----3----3--3----3-----
A|-------------------------------------------------------------
E|-------------------------------------------------------------



E|------------------------------------------------------------------------------------------
B|------------------------------------------------------------------------------------------
G|--0/1----1----1----1--1----1------0----0----0----0--0----0------1----1----1----1--1----1--
D|------------------------------------------------------------------------------------------
A|------------------------------------------------------------------------------------------
E|------------------------------------------------------------------------------------------



E|---------------------------------------------------------------------------------
B|---------------------------------------------------------------------------------
G|--0----0----0----0--0--0------1----1----1----1--1------0----0----0----0--0--0----
D|---------------------------------------------------------------------------------
A|---------------------------------------------------------------------------------
E|---------------------------------------------------------------------------------



E|----------------------------------------------------------------
B|----------------------------------------------------------------
G|--1/3----3----3----3--3----3------3----3----3----1--0-----------
D|-------------------------------------------------------3--1-----
A|----------------------------------------------------------------
E|----------------------------------------------------------------
http://www.guitartabcreator.com
Guitar Tab Creator is intended to store guitar tab created through the tool. It currently does not support in-line text editing. Any text you place in here will be lost. If you need to comment on your tab, please use the "Tab Notes" section located below.