St. Brendans Way

(/) Slide Up  (\) Slide Down  (h) Hammer On  (p) Pull Off  (b) Bend (r) Release (v) Vibrato
E|------------------------------------------------------------------------------------
B|------------------------------------------------------------------------------------
G|------------------------------------------------------------------------------------
D|-7--7-7-7--7--7-7-7-------------------------------------------------7-7-7--7--7-7-7-
A|-----------------------7--7-7-7--7--7-7-7----5--5-5-5--7--7-7-7--0------------------
E|------------------------------------------------------------------------------------



E|------------------------------------------------------------------------------------
B|------------------------------------------------------------------------------------
G|------------------------------------------------------------------------------------
D|-7--7-7-7--7--7-7-7-----------------------------------------6--7--7-7-7--7--7-7-7---
A|----------------------7--7-7-7--7--7-7-6---5--5-5-5--7--7-7-------------------------
E|------------------------------------------------------------------------------------



E|------------------------------------------------------------
B|------------------------------------------------------------
G|------------------------------------------------------------
D|------------------------------------------------------------
A|-------7---------7--6--5----7-----------4--5--7--5--4-------
E|--5---------0--------------------5--------------------------



E|---------------------------------------------------------
B|---------------------------------------------------------
G|---------------------------------------------------------
D|---------------------------------------------------------
A|-------7--------------------------------4--5--7--5-------
E|--5---------0----------2----4----5-----------------------



E|-----------------------------------------------------------------------
B|-----------------------------------------------------------------------
G|-----6-------4--------------1--2---------------------------------------
D|--4-------2-------0----2-----------------------------------------------
A|-----------------------------------------7-------7--6--5----7----------
E|--------------------------------------5-------0------------------5-----



E|--------------------------------------------------------------------
B|--------------------------------------------------------------------
G|--------------------------------------------------------------------
D|--4-------------------4-------------------4-------------------7-----
A|-------7----5----7---------7----5----7---------7----5----7----------
E|--------------------------------------------------------------------



E|-------------------------------------------------
B|-------------------------------------------------
G|--------6-------1--4----------2-------1--4-------
D|--4--7-------2----------0--4-------2----------7--
A|-------------------------------------------------
E|-------------------------------------------------
http://www.guitartabcreator.com
Guitar Tab Creator is intended to store guitar tab created through the tool. It currently does not support in-line text editing. Any text you place in here will be lost. If you need to comment on your tab, please use the "Tab Notes" section located below.