e

(/) Slide Up  (\) Slide Down  (h) Hammer On  (p) Pull Off  (b) Bend (r) Release (v) Vibrato


E|-------------------------------------------------------------------------------
B|-------------------------------------------------------------------------------
G|-------------------------------------------------------------------------------
D|-------------------------------------3-2-------------------------------3-2-----
A|-----------------------------------4-----3-2-------------------------4-----3-2-
E|-0-0-0-0-0-0-0-0-0-0-0-0-0-0-0-1-4-----------0-0-0-0-0-0-0-0-0-0-1-4-----------



E|-------------------------------------------------------------------------------------------17-17-
B|-------15v-12-15v-15v-12-------------15--------------------------14/15/14/15-17v-15-14-----------
G|-------------------------12-14-12-14----14-12----12-14v-12-14/16-----------------------16v-------
D|----------------------------------------------14-------------------------------------------------
A|-------------------------------------------------------------------------------------------------
E|-0-0-0-------------------------------------------------------------------------------------------
http://www.guitartabcreator.com
Guitar Tab Creator is intended to store guitar tab created through the tool. It currently does not support in-line text editing. Any text you place in here will be lost. If you need to comment on your tab, please use the "Tab Notes" section located below.