Mona Lisa

(/) Slide Up  (\) Slide Down  (h) Hammer On  (p) Pull Off  (b) Bend (r) Release (v) Vibrato

E|--13--13--13--13--12--12--12--12--10--10--10--10--8---8---8---8---7--7--7--7--5--5--5--5--3-----
B|--15--15--15--15--13--13--13--13--12--12--12--12--10--10--10--10--8--8--8--8--6--6--6--6--5-----
G|------------------------------------------------------------------------------------------------
D|------------------------------------------------------------------------------------------------
A|------------------------------------------------------------------------------------------------
E|------------------------------------------------------------------------------------------------



E|---------------------------------------------------------------------
B|----------5-----------5--------5--------5-----5----------------------
G|-------5-----5-----5-----5--------5--------5-------------------------
D|--4/5-----------6-----------7--------8--------------7--------7-------
A|-------------------------------------------------8-----8--7-----7--5b
E|---------------------------------------------------------------------



E|--1--3--5--8---8---8---8---8---8---5--|--
B|--1--5--6--10--10--10--10--10--10--6--|--
G|--------------------------------------|--
D|--------------------------------------|--
A|--------------------------------------|--
E|--------------------------------------|--



E|-----8--------------------|--1--2--3--5--5--5--6--7--5--5--5--|--15b|--15--14--16--15--
B|--------10--8-------------|--1--2--3--6--6--6--7--8--6--6--6--|--15-|--17--16--17--17--
G|--9------------9----------|-----------------------------------|--14-|------------------
D|------------------10------|-----------------------------------|--14-|------------------
A|----------------------10--|-----------------------------------|-----|------------------
E|--------------------------|-----------------------------------|-----|------------------
http://www.guitartabcreator.com
Guitar Tab Creator is intended to store guitar tab created through the tool. It currently does not support in-line text editing. Any text you place in here will be lost. If you need to comment on your tab, please use the "Tab Notes" section located below.