Sweet Child 'O' Mine

(/) Slide Up  (\) Slide Down  (h) Hammer On  (p) Pull Off  (b) Bend (r) Release (v) Vibrato


E|--------------------------------------------
B|-----------------------15--15b17--15--------
G|--14b16b14--12--14b16-----------------9b11--
D|--------------------------------------------
A|--------------------------------------------
E|--------------------------------------------



E|-------------------------------10--------------------------------------------------------------
B|------------------------------------------------------12--15--15\13--17----17--17--15--15--13--
G|--14--12----14--12--11b12----------11b12--14--12--11-------------------------------------------
D|---------------------------12------------------------------------------------------------------
A|-----------------------------------------------------------------------------------------------
E|-----------------------------------------------------------------------------------------------



E|--7b8---------------------------------------------------17--
B|-------8--------------------------15--15b17--15--17b19------
G|----------7--14b16b14--12--14b16----------------------------
D|------------------------------------------------------------
A|------------------------------------------------------------
E|------------------------------------------------------------
http://www.guitartabcreator.com
Guitar Tab Creator is intended to store guitar tab created through the tool. It currently does not support in-line text editing. Any text you place in here will be lost. If you need to comment on your tab, please use the "Tab Notes" section located below.