she's thunderstorms solo

(/) Slide Up  (\) Slide Down  (h) Hammer On  (p) Pull Off  (b) Bend (r) Release (v) Vibrato


E|----------------------------------------------------------------------------------------------------
B|--4h5--8--7h8--12--11h12--16--14h16-----------------------12b13--10--8/12--10--12b13--10--8--12-----
G|-------------------------------------4--5--7--8--7--5--7--------------------------------------------
D|----------------------------------------------------------------------------------------------------
A|----------------------------------------------------------------------------------------------------
E|----------------------------------------------------------------------------------------------------



E|----------------------------------------------------------------------
B|--10--8--10--8b10-----------------------------------------------------
G|-------------------7--8--7--------------------------------------------
D|----------------------------9--7--7--9--10--9--7--7--9--7--5--7--5b7--
A|----------------------------------------------------------------------
E|----------------------------------------------------------------------
http://www.guitartabcreator.com
Guitar Tab Creator is intended to store guitar tab created through the tool. It currently does not support in-line text editing. Any text you place in here will be lost. If you need to comment on your tab, please use the "Tab Notes" section located below.