Knockin On Heavens Door

(/) Slide Up  (\) Slide Down  (h) Hammer On  (p) Pull Off  (b) Bend (r) Release (v) Vibrato


E|--------------------------------------------------------------------------------
B|------------------------15----------------------------15/17--15--13--12--13b15--
G|--12--14b16b14--12--14------14b16b14--12--12------12----------------------------
D|----------------------------------------------14--------------------------------
A|--------------------------------------------------------------------------------
E|--------------------------------------------------------------------------------



E|-------------------------------15--------------15--17b19--17--17b19--17b19--15--
B|--13--12--13--13-------12--13------13--12--17-----------------------------------
G|--------------------------------------------------------------------------------
D|------------------14v-----------------------------------------------------------
A|--------------------------------------------------------------------------------
E|--------------------------------------------------------------------------------



E|--20b21b20--20--19--20--19--20b21--20--19--20--20------------------------------------------15--
B|---------------------------------------------------17--15b17b15b17b15--------------------------
G|-----------------------------------------------------------------------14b16b14b16b14--12------
D|-----------------------------------------------------------------------------------------------
A|-----------------------------------------------------------------------------------------------
E|-----------------------------------------------------------------------------------------------
http://www.guitartabcreator.com
Guitar Tab Creator is intended to store guitar tab created through the tool. It currently does not support in-line text editing. Any text you place in here will be lost. If you need to comment on your tab, please use the "Tab Notes" section located below.