Bryan Ferry In Your Mind

(/) Slide Up  (\) Slide Down  (h) Hammer On  (p) Pull Off  (b) Bend (r) Release (v) Vibrato


E|------------------------------------------------------------------------------------------
B|------------------------------------------------------------------------------------------
G|------------------------------------------------------------------------------------------
D|----------------------------------------------------3--3--3--2/5--5--5--5--3/8--8/10--10--
A|--3----3--3--3--2-----1--1--1--0-----------0--3--3----------------------------------------
E|-------------------3--------------1--1--1-------------------------------------------------



E|-------------------------------------------------------------------------------------------
B|--------6--6--6--5/8--8/10--10b12------10b12-----------------------------------10--11------
G|--5--5-----------------------------10---------10/12/14--14----------9--10--12----------12--
D|------------------------------------------------------------10--12-------------------------
A|-------------------------------------------------------------------------------------------
E|-------------------------------------------------------------------------------------------



E|-------------------------------------------------------------------------------------------
B|---------------------10--11-------------------------10--11--13b15------10------------------
G|----------9--10--12----------12----------9--10--12-----------------12------12--10--12--10--
D|--10--12-------------------------10--12----------------------------------------------------
A|-------------------------------------------------------------------------------------------
E|-------------------------------------------------------------------------------------------



E|-------------------------------------------------------------
B|------10--11--13--15--17--17b18------17b18-------------------
G|--12-----------------------------15---------14--14\12\10-----
D|-------------------------------------------------------------
A|-------------------------------------------------------------
E|-------------------------------------------------------------
http://www.guitartabcreator.com
Guitar Tab Creator is intended to store guitar tab created through the tool. It currently does not support in-line text editing. Any text you place in here will be lost. If you need to comment on your tab, please use the "Tab Notes" section located below.