BB King Soloing DVD in G 3rd chorus to a solo

(/) Slide Up  (\) Slide Down  (h) Hammer On  (p) Pull Off  (b) Bend (r) Release (v) Vibrato
E|--10b13b13--10--10b13--10--8-----------------|--10b13--10--10b13--10--8------------------v--|-----
B|------------------------------11--8v--10b12--|---------------------------11--8h10p8-----8---|-----
G|---------------------------------------------|---------------------------------------9------|-----
D|---------------------------------------------|----------------------------------------------|-----
A|---------------------------------------------|----------------------------------------------|-----
E|---------------------------------------------|----------------------------------------------|-----



E|---------10--|------------10--12--15----------------------------|--
B|--10b12------|--8--10/12--------------10b12r10p8-----8v--10b12--|--
G|-------------|------------------------------------9-------------|--
D|-------------|--------------------------------------------------|--
A|-------------|--------------------------------------------------|--
E|-------------|--------------------------------------------------|--



E|--8b10--8-------------|--10b12--10--8---------------------------|--
B|-----------11--8v-----|----------------10b11r10p8--10p8-----8v--|--
G|-------------------9--|----------------------------------9------|--
D|----------------------|-----------------------------------------|--
A|----------------------|-----------------------------------------|--
E|----------------------|-----------------------------------------|--



E|---------------8--10--13\-----------|--3v--------------------------------|--
B|-----8--10/12------------10b12------|------3-------------3v--------------|--
G|--9---------------------------------|---------5--4--3/4------5--4--------|--
D|------------------------------------|------------------------------5-----|--
A|------------------------------------|---------------------------------5--|--
E|------------------------------------|------------------------------------|--



E|----------------3--5------------------|-----------------10b12--10--8--|-----
B|-----3--5--5b7--------3v--5-----3-----|-------8--10--8----------------|-----
G|--4--------------------------5-----5--|--7/9--------------------------|-----
D|--------------------------------------|-------------------------------|-----
A|--------------------------------------|-------------------------------|-----
E|--------------------------------------|-------------------------------|-----



E|------------------------10----|--3--3--3--3----------3--|-----------------------|--
B|--10b11r10p8-----10b12------8\|--6--5--4--3-------------|--5--3v----------------|--
G|--------------9---------------|--------------5--3h4-----|-----------------------|--
D|------------------------------|-------------------------|-----------------------|--
A|------------------------------|-------------------------|-----------------------|--
E|------------------------------|-------------------------|-----------------------|--
http://www.guitartabcreator.com
Guitar Tab Creator is intended to store guitar tab created through the tool. It currently does not support in-line text editing. Any text you place in here will be lost. If you need to comment on your tab, please use the "Tab Notes" section located below.