BB King Soloing DVD in G 2nd chorus as an intro to a solo

(/) Slide Up  (\) Slide Down  (h) Hammer On  (p) Pull Off  (b) Bend (r) Release (v) Vibrato


E|-----------|-------------------------|-------------------|-----------------------------|--
B|-----------|-------------------------|-------------------|-------------------3--5--3v--|--
G|-----------|--3/4--------------------|-----------2/3-----|-----------3/4--4------------|--
D|-----2--5--|-------5------------1/2--|-----2--5-------5--|-----2--5--------------------|--
A|--5--------|-------------------------|--3----------------|--5--------------------------|--
E|-----------|-------------------------|-------------------|-----------------------------|--



E|---------------------------------------------|----------------------|-----------------------|--
B|----------3--5--6--5--3----------------------|----------------------|-----3-----------------|--
G|-----3/4-----------------3-----3--2----------|-----------2/3--------|--------6--5--3--2-----|--
D|--5-------------------------5--------5--1/2--|--2-----5-------5--5--|--5-----------------5--|--
A|---------------------------------------------|-----3----------------|-----------------------|--
E|---------------------------------------------|----------------------|-----------------------|--



E|---------------------------------------------|-----------------------------|--
B|-------------------------------------3v------|--------------------------3--|--
G|--------------------------------3/4----------|--5--4-----------------4-----|--
D|--3h5p3-----3----------------5---------------|--------5-----------5--------|--
A|---------5-----5--3--2--1/2------------------|-----------------------------|--
E|---------------------------------------------|-----------5-----------------|--



E|----------5--4--3-----5-----7\6p3---------|--------------5-----5b7--3v--|--
B|--5--5/7-----------5-----5---------3------|-----3--4--5-----5-----------|--
G|--------------------------------------5v--|--4--------------------------|--
D|------------------------------------------|-----------------------------|--
A|------------------------------------------|-----------------------------|--
E|------------------------------------------|-----------------------------|--



E|--------5--------------------
B|--6--3-----3-------------3v--
G|--------------6--3--3/4------
D|-----------------------------
A|-----------------------------
E|-----------------------------
http://www.guitartabcreator.com
Guitar Tab Creator is intended to store guitar tab created through the tool. It currently does not support in-line text editing. Any text you place in here will be lost. If you need to comment on your tab, please use the "Tab Notes" section located below.