BB King Soloing DVD in G 1st chorus

(/) Slide Up  (\) Slide Down  (h) Hammer On  (p) Pull Off  (b) Bend (r) Release (v) Vibrato


E|--------3--|--5b7--3v--------------|--10b13--10--10b13--10--8-----------------------------|--
B|--3--5-----|-----------6--3--------|---------------------------11--10p8-----8v-----10b12--|--
G|-----------|-----------------5--3--|-------------------------------------9------9---------|--
D|-----------|-----------------------|------------------------------------------------------|--
A|-----------|-----------------------|------------------------------------------------------|--
E|-----------|-----------------------|------------------------------------------------------|--



E|------------8--8b10--8-------------|--10b12b12--10--8v----------------------|----------------------|--
B|--8--10b12--------------11--8v-----|--------------------10b11--10p8-----8v--|----------------------|--
G|--------------------------------9--|---------------------------------9------|--9-------------------|--
D|-----------------------------------|----------------------------------------|-----10---------------|--
A|-----------------------------------|----------------------------------------|---------10--8--7-----|--
E|-----------------------------------|----------------------------------------|-------------------8--|--



E|-------------------8b10b10r8------------------------------|--
B|---------8--10b11-------------8--10b13--10b11--8v--10b12--|--
G|------9---------------------------------------------------|--
D|--10------------------------------------------------------|--
A|----------------------------------------------------------|--
E|----------------------------------------------------------|--



E|--13--8h9p8-----------------|------------------3--5---------|--
B|-------------11--8v--10b12--|--3v--3v--3--5b7--------3v-----|--
G|----------------------------|----------------------------5--|--
D|----------------------------|-------------------------------|--
A|----------------------------|-------------------------------|--
E|----------------------------|-------------------------------|--



E|--10b13--10--8b10--8---------------------------------10------|------------|--
B|----------------------11--8--10-----8--10--8--10b12------8v--|--3---------|--
G|---------------------------------9---------------------------|-----5--4v--|--
D|-------------------------------------------------------------|------------|--
A|-------------------------------------------------------------|------------|--
E|-------------------------------------------------------------|------------|--
http://www.guitartabcreator.com
Guitar Tab Creator is intended to store guitar tab created through the tool. It currently does not support in-line text editing. Any text you place in here will be lost. If you need to comment on your tab, please use the "Tab Notes" section located below.