BB King Solo in G from Darlin', you know I love you Live in Cook County Jail

(/) Slide Up  (\) Slide Down  (h) Hammer On  (p) Pull Off  (b) Bend (r) Release (v) Vibrato


E|---------------|---------------10b13------10--8--|-------------------------------------|--
B|-------8v--8v--|--11b12--------------------------|--11b12--8v--8v----8v------8--11b13--|--
G|--7/9----------|---------------------------------|-------------------------------------|--
D|---------------|---------------------------------|-------------------------------------|--
A|---------------|---------------------------------|-------------------------------------|--
E|---------------|---------------------------------|-------------------------------------|--



E|--8v------8--10---------|--------------10b13--10--8--|-------------------
B|-----------------11b12--|--8v------------------------|--11b12--8v--------
G|------------------------|----------------------------|-------------------
D|------------------------|----------------------------|-------------------
A|------------------------|----------------------------|-------------------
E|------------------------|----------------------------|-------------------
http://www.guitartabcreator.com
Guitar Tab Creator is intended to store guitar tab created through the tool. It currently does not support in-line text editing. Any text you place in here will be lost. If you need to comment on your tab, please use the "Tab Notes" section located below.