BB King DVD Phrasing in G

(/) Slide Up  (\) Slide Down  (h) Hammer On  (p) Pull Off  (b) Bend (r) Release (v) Vibrato

E|-----3--------|--8b10--8----------|---------------|--12b14--12--10------10v--|--8b10--8-----------------
B|--3-----6/8v--|-----------11--8v--|--6--3---------|-----------------13-------|-----------11--10--8v-----
G|--------------|-------------------|--------5--4v--|--------------------------|--------------------------
D|--------------|-------------------|---------------|--------------------------|--------------------------
A|--------------|-------------------|---------------|--------------------------|--------------------------
E|--------------|-------------------|---------------|--------------------------|--------------------------



E|-------3v-----3--5--6/7-----|--
B|-----------5-------------3--|--
G|--3/4-----------------------|--
D|----------------------------|--
A|----------------------------|--
E|----------------------------|--



E|-----6b8--6--3v---------------------|--10b12--10--8b9--8----------------------------------|-----
B|--3--------------6--3-----------3v--|---------------------11--8h10p8-----8----------------|-----
G|-----------------------5--3--4------|---------------------------------9-----9-------------|-----
D|------------------------------------|------------------------------------------10------8--|-----
A|------------------------------------|----------------------------------------------10-----|-----
E|------------------------------------|-----------------------------------------------------|-----



E|--6--7--3------------------------------------|-----
B|-----------3-----------------------------3v--|-----
G|--------------5--4------------------3/4------|-----
D|--------------------5-----------5v-----------|-----
A|-----------------------5--3--2---------------|-----
E|---------------------------------------------|-----



E|------------10--12--12b14--10-----------------------------|-------------------10--12--15--|-----
B|--8--10/12---------------------11b12----------------------|---------8--10/12--------------|-----
G|--------------------------------------12--11--------------|------9------------------------|-----
D|----------------------------------------------12--11--10--|--10---------------------------|-----
A|----------------------------------------------------------|-------------------------------|-----
E|----------------------------------------------------------|-------------------------------|-----



E|---------------------|-----3-----3------------------------|---------------|--
B|--10b12r10p8-----8v--|--6-----5-----3---------------------|-----------3v--|--
G|--------------9------|-----------------5v--4--------------|---------------|--
D|---------------------|------------------------5-----------|---------------|--
A|---------------------|---------------------------5--3--2--|--3--4--5------|--
E|---------------------|------------------------------------|---------------|--
http://www.guitartabcreator.com
Guitar Tab Creator is intended to store guitar tab created through the tool. It currently does not support in-line text editing. Any text you place in here will be lost. If you need to comment on your tab, please use the "Tab Notes" section located below.