GotYa Refrein

(/) Slide Up  (\) Slide Down  (h) Hammer On  (p) Pull Off  (b) Bend (r) Release (v) Vibrato
E|--------------------------------------------
B|--------------------------------------------
G|---------7-----------7--------7-------------
D|---------5-----------5--------5-------------
A|---------7-----------7--------7-------------
E|--0--0-----------0--------------------0--0--



E|--------------------------------------------
B|--------------------------------------------
G|--------------------------------------------
D|--2--------2--------2--0--2--2(p)-0---------
A|--3--------3--------3-----------------0-----
E|--3--------3--------3-----------------------
http://www.guitartabcreator.com
Guitar Tab Creator is intended to store guitar tab created through the tool. It currently does not support in-line text editing. Any text you place in here will be lost. If you need to comment on your tab, please use the "Tab Notes" section located below.