GotYa Intro

(/) Slide Up  (\) Slide Down  (h) Hammer On  (p) Pull Off  (b) Bend (r) Release (v) Vibrato

E|-----------------------------------------------------
B|-----------------------------------------------------
G|--------0--------0--------------0--------0-----------
D|-----1--------1--------------0--------0--------------
A|--0--------0--------0--2--3--------3--------0--2--3--
E|-----------------------------------------------------



E|--------------------------------------------------0--------------
B|-----------------------------------------------------3-----------
G|--------0--------0--------------0-----------0-----------0--------
D|-----1--------1--------------0-----------4-----4-----------4-----
A|--0--------0--------0--2--3-----------5-----------------------5--
E|-----------------------------------------------------------------
http://www.guitartabcreator.com
Guitar Tab Creator is intended to store guitar tab created through the tool. It currently does not support in-line text editing. Any text you place in here will be lost. If you need to comment on your tab, please use the "Tab Notes" section located below.