GotYa Couplet 1

(/) Slide Up  (\) Slide Down  (h) Hammer On  (p) Pull Off  (b) Bend (r) Release (v) Vibrato

E|--------------------------------------------
B|------------------0--------------0-----3----
G|--0--------0------0-----------0-----0--0----
D|--1--------0------1--------0-----------4----
A|--0--------3---------------------------5----
E|--------------------------------------------


E|--------------
B|--3-----------
G|--0-----------
D|--4-----------
A|--5-----------
E|--------------
http://www.guitartabcreator.com
Guitar Tab Creator is intended to store guitar tab created through the tool. It currently does not support in-line text editing. Any text you place in here will be lost. If you need to comment on your tab, please use the "Tab Notes" section located below.