Skyscraper-Demi Lovato (fingerstyle)

(/) Slide Up  (\) Slide Down  (h) Hammer On  (p) Pull Off  (b) Bend (r) Release (v) Vibrato

Stave 1:

E|--------------------------|--------------------------|--------------------------|--------------------------|--
B|--0--0--0--0--0--0--0--0--|--1--1--1--1--1--1--1--1--|--0--0--0--0--0--0--0--0--|--------------------------|--
G|--0--0--0--0--0--0--0--0--|--0--0--0--0--0--0--0--0--|--0--0--0--0--0--0--0--0--|--2--2--2--2--2--2--2--2--|--
D|--------------------------|--------------------------|--------------------------|--0--0--0--0--0--0--0--0--|--
A|--------------------------|--3--------3--------3-----|--------------------------|--------------------------|--
E|--3--------3--------3-----|--------------------------|--0--------0--------0-----|--2--------2--------2-----|--

Stave 2:

E|-----------------------|-----------------------|--------------------------------------|--------------
B|--------1-----------0--|--------1-----------0--|--------1-----------0-----------------|--------------
G|--0--2-----------0-----|--0--2-----------0-----|--0--2-----------0-----2--0--2-----2--|--------------
D|--------------0--------|--------------2--------|--------------2-----------------0-----|--------------
A|-----------------------|-----------3-----------|--------------------------------------|--------------
E|-----------3-----------|-----------------------|-----------0-----------------2--------|--------------

Stave 3:

E|--------2-----------3--|--------2-----------0--|-----------------------|-----------------------------------|--
B|-----------------------|-----------------------|--------1--------0-----|-----------------3-----------------|--
G|--0--0-----------0-----|--0--0-----------0-----|--0--0-----------0-----|--0--2--0--2--------2-----2-----2--|--
D|--------------0--------|--------------2--------|--------------2-----2--|--------------0--------0-----0-----|--
A|-----------------------|-----------3-----------|-----------------------|-----------------------------------|--
E|-----------3-----------|-----------------------|-----------0-----------|-----------2--------------------2--|--

Stave 4:

E|-----------------------------------------------|--------------------------------------|-----------------------------------------|--------
B|-----------1--------0--------------------------|-----------1--------0-----------------|-----------------0-----------0-----------|--------
G|--0--2--0-----------0-----0--2--0--0-----0-----|--0--2--0-----------0-----0--2--0--2--|-----2-----2--0-----------0-----0-----0--|--------
D|-----------------0-----0--------------2-----2--|-----------------2-----2--------------|--0-----0--------------0-----------0-----|--------
A|-----------------------------------3-----------|--------------------------------------|-----------------------------------------|--------
E|--------------3--------------------------------|--------------0--------------------2--|--------------------3--------------------|--------

Stave 5:

E|--------------------------------------------------------|--------------------------------------------|--------------------------------------|--
B|--------------------1-----------0-----------------------|-----------------0--------------------------|-----------1--------0-----------------|--
G|--------2--0--2--0-----------0-----0-----0--2-----2-----|--0--2--0--------0-----0--2--0--0-----0-----|--0--2--0-----------0-----0--2--0--2--|--
D|-----2--------------------2-----------2--------0-----0--|--------------0-----0--------------2-----2--|-----------------2-----2--------------|--
A|--3-----------------------------------------------------|--------------------------------3-----------|--------------------------------------|--
E|-----------------------0--------------------2-----------|-----------3--------------------------------|--------------0--------------------2--|--

Stave 6:

E|--------------------------------------|--------------------------------------------------|--
B|-----------0--1-----------0-----------|-----------------0--1-----------0-----------3-----|--
G|--2--0--2--------------0--0-----0-----|--------2--0--2--------------0-----0-----0--2-----|--
D|--------------------0--------0-----0--|-----2--------------------2-----------2--------0--|--
A|--------------------------------------|--3-----------------------------------------------|--
E|-----------------3--------------------|-----------------------0--------------------2-----|--

Stave 7:

E|--------------------------|--------------------------|-----------------------------------------|--
B|--------1-----0--0-----0--|--------1-----0--0-----0--|--------1--------0-----------------------|--
G|--0--2--------0--0-----0--|--0--2--------0--0-----0--|--0--2-----------0-----2-----0--2-----2--|--
D|--------------------------|--------------------------|--------------2-----2-----2--------0-----|--
A|--------------------------|-----------3--------3-----|-----------------------------------------|--
E|-----------3--------3-----|--------------------------|-----------0--------------------2--------|--

Stave 8:

E|-----------------------------------|--------------------------------|--------2-----------3--|--------2-----------0--|--------------------
B|--------1-----------0--3-----------|-----1--------0--------3-----3--|--3--3--------------0--|--3--3--------------1--|-----------------0--
G|--0--2-----------0--------2-----0--|--0-----------0-----0--------2--|-----------------0-----|-----------------0-----|-----------------0--
D|--------------0--------------2-----|-----------2-----2--------2-----|--------------0--------|--------------2--------|-----------------2--
A|--------------------------3--------|--------------------------------|-----------------------|-----------3-----------|--------------------
E|-----------3-----------------------|--------0--------------------2--|-----------3-----------|-----------------------|--------------------

Stave 9:

E|--------------------------------------|--
B|--------1--------0--------------------|--
G|--0--0-----------0-----0--2--0--2-----|--
D|--------------2-----2--------------0--|--
A|--------------------------------------|--
E|-----------0--------------------2-----|--

Stave 10:

E|--------------------------------------------------------------------|-----------------------------------------|--------------------------|--
B|--------2-----2--0--------------0-----------------0-----------------|--------2-----2--0--------------0--------|-----------------0--------|--
G|-----2-----2--------2-----2--0-----0--------2--0-----0--------0-----|-----2-----2--------2-----2--0-----0-----|--0--2--0--2--0-----0-----|--
D|--0--------------------2--------------2--2--------------0--0-----4--|--0--------------------2--------------2--|--------------------0--4--|--
A|--------------------3-----------------------------------------------|--------------------3--------------------|-----------------------5--|--
E|--------------------------------------0-----------------2-----------|--------------------------------------0--|--------------------------|--

http://www.guitartabcreator.com
Guitar Tab Creator is intended to store guitar tab created through the tool. It currently does not support in-line text editing. Any text you place in here will be lost. If you need to comment on your tab, please use the "Tab Notes" section located below.