Die to Save You

(/) Slide Up  (\) Slide Down  (h) Hammer On  (p) Pull Off  (b) Bend (r) Release (v) Vibrato


E|-9---9---5---5---5---5---13----12----6---6---6---6---7---7---7---7---
B|---9---9---3---3---3---3----11----11---6---6---6---6---6---6---6---6-
G|---------------------------------------------------------------------
D|---------------------------------------------------------------------
A|---------------------------------------------------------------------
E|---------------------------------------------------------------------



E|-9---9---5---5---5---5---13----12----6---6---6---6---12----12----12-
B|---9---9---3---3---3---3----11----11---6---6---6---6----10----10----
G|--------------------------------------------------------------------
D|--------------------------------------------------------------------
A|--------------------------------------------------------------------
E|--------------------------------------------------------------------



E|-----------------------------------------------------------------
B|-----------------------------------------------------------------
G|-----------------------------------------------------------------
D|-----------------------------------------------------------------
A|---------------------------------3-5-1-3-0---------------------0-
E|-0-2-3-0-2-3-2-3-5-2-3-5-3-5-8-5-----------8-7-3-7-5-3-2-0-2-3---



E|-----------------------------------------------------------------
B|-----------------------------------------------------------------
G|-----------------------------------------------------------------
D|-----------------------------------------------------------------
A|---------------------------------3-5-1-3-0---------------------0-
E|-0-2-3-0-2-3-2-3-5-2-3-5-3-5-8-5-----------8-7-3-7-5-3-2-0-2-3---



E|---
B|---
G|-7-
D|---
A|-5-
E|---



E|-9---9---5---5---5---5---13----12----6---6---6---6---7---7---7---7---
B|---9---9---3---3---3---3----11----11---6---6---6---6---6---6---6---6-
G|---------------------------------------------------------------------
D|---------------------------------------------------------------------
A|---------------------------------------------------------------------
E|---------------------------------------------------------------------



E|-9---9---5---5---5---5---13----12----6---6---6---6---12----12----
B|---9---9---3---3---3---3----11----11---6---6---6---6----10----10-
G|-----------------------------------------------------------------
D|-----------------------------------------------------------------
A|-----------------------------------------------------------------
E|-----------------------------------------------------------------



E|---------
B|---------
G|---------
D|-5-5-5-5-
A|-5-5-5-5-
E|-5-5-5-5-



E|-----------
B|-----------
G|-----------
D|--5--0--7--
A|--5--0--7--
E|--5--0--7--



E|-----------------------------------------------------
B|-----------------------------------------------------
G|--5--7--------7--9--------9--10--------10--12--------
D|--------0--0--------0--0---------0--0----------0--0--
A|--3--5--0--0--5--7--0--0--7--8---0--0--8---10--0--0--
E|--------0--0--------0--0---------0--0----------0--0--



E|--------------------------
B|--------------------------
G|--------------------------
D|--5--0--7----7--5--10--8--
A|--5--0--7----7--5--10--8--
E|--5--0--7----7--5--10--8--



E|-----------------------------
B|-----------------------------
G|-----------------------------
D|------------------5--3--8--7-
A|------------------5--3--8--7-
E|-5-5-5-5-5-5-5-5--5--3--8--7-



E|--------------
B|--------------
G|--------------
D|--7--5--7--8--
A|--7--5--7--8--
E|--7--5--7--8--



E|----------------------------------------------------------
B|----------------------------------------------------------
G|--10--9--7--------10--9--7--------10--9--7----------------
D|----------------------------------------------7--5--7--8--
A|----------------------------------------------7--5--7--8--
E|----------------------------------------------7--5--7--8--



E|--------------------------
B|--------------------------
G|--------------------------
D|--5--0--7--5--7--5--7--8--
A|--5--0--7--5--7--5--7--8--
E|--5--0--7--5--7--5--7--8--



E|-------------------------------------------------------------
B|--15---------------------------------------------------------
G|--17--17b18--------------------------------------------------
D|-------------------------------------------------------------
A|-------------------------------------------------------------
E|-------------0--2--3--0--2--3--2--3--5--2--3--5--3--5--8--5--



E|----------------------------------------
B|----------------------------------------
G|--------------------------------------5b
D|----------------------------------------
A|--3--5--1--3--0-------------------------
E|-----------------8--7--3--7--5--3--0----



E|----------------------------------------------------------------------
B|----------------------------------------------------------------------
G|----------------------------------------------------------------------
D|------------------------------------------------------------------0-0-
A|---------------------------------3-5-1-3-0---------------------3--0-0-
E|-0-2-3-0-2-3-2-3-5-2-3-5-3-5-8-5-----------8-7-3-7-5-3-2-0-2-3----0-0-
http://www.guitartabcreator.com
Guitar Tab Creator is intended to store guitar tab created through the tool. It currently does not support in-line text editing. Any text you place in here will be lost. If you need to comment on your tab, please use the "Tab Notes" section located below.