loool

(/) Slide Up  (\) Slide Down  (h) Hammer On  (p) Pull Off  (b) Bend (r) Release (v) Vibrato

E|-----------------------------------0-----------------------
B|--------1-----3-----------1-----3-----------1-----3--5-----
G|-----2-----2-----2-----2-----2-----------2-----2--------5--
D|--3-----------------3-----------------3--------------------
A|-----------------------------------------------------------
E|-----------------------------------------------------------



E|--------------------------------
B|--------1--------1--------1--1--
G|-----2-----------------------0--
D|--3-----------2--------------0--
A|-----------3-----------2-----2--
E|--------------------3--------3--



E|-------0h2-------2--
B|------------0h3--3--
G|--0h2------------2--
D|--------------------
A|--------------------
E|--------------------
http://www.guitartabcreator.com
Guitar Tab Creator is intended to store guitar tab created through the tool. It currently does not support in-line text editing. Any text you place in here will be lost. If you need to comment on your tab, please use the "Tab Notes" section located below.