Collapse Of The Valkyries

(/) Slide Up  (\) Slide Down  (h) Hammer On  (p) Pull Off  (b) Bend (r) Release (v) Vibrato


E|--------------------------------------------------------------------------------------------------
B|--------------------------------------------------------------------------------------------------
G|--------------------------------------------------------------------------------------------------
D|--------------------------------------------------------------------------------------------------
A|-----------------------3--3--3--2--2-------------------------------------3--3--3--2--2------------
E|--0--0--0--3--2--2--2-----------------3--3--4--4----0--0--0--3--2--2--2-----------------3/4--3/4--



E|--------------------------------------------------------------------------------------------------------------------------------------
B|--------------------------------------------------------------------------------------------------------------------------------------
G|--------------------------------------------------------------------------------------------------------------------------------------
D|--------------------------------------------------------------------------------------------------------------------------------------
A|--5----5--5--5----5----5--5--5----5--5--5----6----6--6--6----6----6--6--6----6--6--6----0----0--0--0----0----0--0--0------0--0--0-----
E|--------------------------------------------------------------------------------------------------------------------------------------



E|--------------------------
B|--------------------------
G|--------------------------
D|--------------------------
A|--------------------------
E|--6--6--6--3--3--3--4--1--



E|----------------------------------------------------------------------
B|----------------------------------------------------------------------
G|----------------------------------------------------------------------
D|-----3-----5--3----------2-----3--2-----------------------------------
A|--5-----5--------5----3-----3--------3----1---------------------------
E|---------------------------------------------------1--1--1/4----4--4--



E|---------------------------------------
B|---------------------------------------
G|---------------------------------------
D|---------------------------------------
A|------------4--3-----------------------
E|--0----0----------4--3--0--1--4--3--1--



E|-------------------------------------
B|-------------------------------------
G|-------------------------------------
D|-------------------------------------
A|----------4--3-----------------------
E|--0----0--------4--3--0----3----4----



E|-----------------------------------------------------------------------------------------------------------------
B|-----------------------------------------------------------------------------------------------------------------
G|-----------------------------------------------------------------------------------------------------------------
D|-----------------------------------------------------------------------------------------------------------------
A|------------------------------------------------------------------------------------------5-------4--------------
E|--0----0--0--0----0--0--0--0--0------0----0--0--0----0--0--0--0--0----4----4--4--4--4--4-----4\3-----3--6--5--1--



E|----------------------------------------------------------------------------------------------------------
B|----------------------------------------------------------------------------------------------------------
G|---------------------------------------------------------------------10/11---------------------------8\7--
D|----------------------------------------------------------------------------------------------------------
A|--------------------------------------------8----8--8--8--8----8--8---------5----5--5--5--5----5--5-------
E|--0--0--0--8--8--8--6--6--7--7--7--7--7--7----------------------------------------------------------------



E|----------------------------------------------------------------------
B|----------------------------------------------------------------------
G|----------------------------------------------------------------------
D|-----3-----5--3----------2-----3--2-----------------------------------
A|--5-----5--------5----3-----3--------3----1---------------------------
E|---------------------------------------------------1--1--1/4----4--4--



E|-----------------------
B|-----------------------
G|-----------------------
D|-----------------------
A|-----------------------
E|--0--------------------



E|---------------------------------------------------------
B|---------------------------------------------------------
G|--7----7--7--7----7--7--10----10--10--9--10--9h10p9------
D|-----------------------------------------------------10--
A|---------------------------------------------------------
E|---------------------------------------------------------



E|-----------------------------------------------------------------
B|-----------------------------------------------------------------
G|--7----7--7--7----7--7--10----10--10--9--10--9h10p9-----------7--
D|-----------------------------------------------------10----8-----
A|-----------------------------------------------------------------
E|-----------------------------------------------------------------



E|----------------------------------------------------
B|----------------------------------------------------
G|-----7-----------7--7/9------------9--12--10--7--9--
D|--8-----------8----------10----10-------------------
A|----------------------------------------------------
E|----------------------------------------------------



E|-------------------------------------------------
B|-------------------------------------------------
G|-------------------------------------------------
D|-------------------------------------------------
A|-------------------------------------------------
E|--0----0--0--0----0--0--0----0----6--6--3--4--1--



E|---------------------------------------------------
B|---------------------------------------------------
G|---------------------------------------------------
D|--0----0--0--0----0--0--3----3--3--2--5--2h3p2-----
A|------------------------------------------------3--
E|---------------------------------------------------



E|-------------------
B|-------------------
G|-------------------
D|--0----------------
A|-------------------
E|-------------------
http://www.guitartabcreator.com
Guitar Tab Creator is intended to store guitar tab created through the tool. It currently does not support in-line text editing. Any text you place in here will be lost. If you need to comment on your tab, please use the "Tab Notes" section located below.