The Sentient

(/) Slide Up  (\) Slide Down  (h) Hammer On  (p) Pull Off  (b) Bend (r) Release (v) Vibrato


E|----------------------------------------------------------------|-
B|----------------------------------------------------------------|-
G|----------------------------------------------------------------|-
D|----------------------------------------------------------------|-
A|----------------------------8-7-6-7-6-5-6-7-6-5-7-6-5-4-5-6-5-4-|-
E|-3-2--2-2-2-2--1-2--2-2-2-2-------------------------------------|-



E|---------------------------------------------------------------|-
B|---------------------------------------------------------------|-
G|---------------------------------------------------------------|-
D|---------------------------------------------------------------|-
A|---------------------------------------------------------------|-
E|-3-2-2-2-2-2-1-2--2-2-2-2--2-2-2-2-2-2-2-2-2-1-1-1-1-1-1-1-1-1-|-



E|-----------------------------------------------|-----------------|-----------------|-
B|-----------------------------------------------|-----------------|-----------------|-
G|-----------------------------------------------|-----------------|-----------------|-
D|-----------------------------------------------|-5-5---------4-4-|-5-5-------------|-
A|-----------------------------------------------|-----2-2---------|-----2-2-----1-1-|-
E|-3-2-1-2-1--3-2-1-2-1-2-3-2-1-2-1--3-2-1-2-1-2-|---------3-3-----|---------3-3-----|-



E|-------------------------------------------------------------------------|-
B|-------------------------------------------------------------------------|-
G|-------------------------------------------------------------------------|-
D|---5---------------5---------------5---------------5---------------------|-
A|-----2---1-1-1-1-----2---------------2---------------2-------------------|-
E|-2-----3---------2-----3-1-1-4-4-2-----3-1-1-1-1-2-----3-3-2-1-2-3-2-1-2-|-



E|-----------------------------------------------------------|----------------|-
B|-----------------------------------------------------------|----------------|-
G|-----------------------------------------------------------|----------------|-
D|-----------------------------------------------------------|----------------|-
A|-----------------------------------------------------------|-2-1--4-5-5---4-|-
E|-3-3-3-3-3-3--3--3-3-3-3-3---3-3-3--3--3-3-3--2-2-2-2-2--2-|----------------|-



E|---------------------------------------------------------------------------------------|---
B|---------------------------------------------------------------------------------------|---
G|---------------------------------------------------------------------------------------|---
D|-------------------------------------5-----------------------------------5-------------|---
A|-----------------1-2-------------------2---4-------------1-2---------------2---1-1-1-1-|---
E|-3-2-1-2-3-2-1-2-----3-2-1-2-3-2-1-2-----3---3-2-1-2-3-2-----3-2-1-2-1-2-----3---------|---



E|---------------|-
B|---------------|-
G|---------------|-
D|---------------|-
A|-------------1-|-
E|-3--2--1--2----|-
http://www.guitartabcreator.com
Guitar Tab Creator is intended to store guitar tab created through the tool. It currently does not support in-line text editing. Any text you place in here will be lost. If you need to comment on your tab, please use the "Tab Notes" section located below.